Saya Zambito - Solo de Guitarra


min 1:26

e-----------7-10-7-------------
B--8-7-8-10--------10-8-7-8----
G---------------------------9--
D------------------------------
A------------------------------
E------------------------------


e---------------7-8-10-8x3-7x3-----------
B------8-7-8-10----------------10x3-7-8--
G--7-9-----------------------------------
D----------------------------------------
A----------------------------------------
E----------------------------------------


e-----------7-10-12-10-7---------
B------8-10--------------10-7-8--
G--7-9---------------------------
D--------------------------------
A--------------------------------
E--------------------------------


e-----------7--7-10----8---7---------------
B------8-10---------10---8---7-10-7-8-7-8--
G--7-9-------------------------------------
D------------------------------------------
A------------------------------------------
E------------------------------------------


e------------------------------------
B-------------8-10-8-----------------
G---------7-9--------9-7-------------
D-----7-9----------------9-10----10--
A--10-------------------------10-----
E------------------------------------


e--------------------------------------
B---------7-8-7-7----------------------
G-----7-9---------9-9-7--7-7-----------
D--10------------------------10--------
A-------------------------------10-10--
E--------------------------------------


e----------------------------------
B-------------8-10-8---------------
G---------7-9--------9-7-----------
D-----7-9----------------10----10--
A--10-----------------------10-----
E----------------------------------


e-----------------------------------
B---------7-8-7-7-------------------
G-----7-9---------9-9-7--7-7--------
D--10------------------------10-----
A-------------------------------10--
E-----------------------------------

Comentarios

Publicar un comentario